ISO-10303-21;
HEADER;
FILE_DESCRIPTION (( 'STEP AP214' ),
    '1' );
FILE_NAME ('R954-155.STEP',
    '2024-07-09T08:52:35',
    ( '' ),
    ( '' ),
    'SwSTEP 2.0',
    'SolidWorks 2024',
    '' );
FILE_SCHEMA (( 'AUTOMOTIVE_DESIGN' ));
ENDSEC;

DATA;
#1 = ORIENTED_EDGE ( 'NONE', *, *, #124, .F. ) ;
#2 = APPLICATION_PROTOCOL_DEFINITION ( 'draft international standard', 'automotive_design', 1998, #86 ) ;
#3 = CARTESIAN_POINT ( 'NONE',  ( 8.750000000000000000, -1.557842590297845321E-17, -11.00000000000000000 ) ) ;
#4 = DIRECTION ( 'NONE',  ( 1.000000000000000000, 0.000000000000000000, 0.000000000000000000 ) ) ;
#5 = PRODUCT_DEFINITION ( 'UNKNOWN', '', #172, #195 ) ;
#6 = ORIENTED_EDGE ( 'NONE', *, *, #120, .F. ) ;
#7 = DIRECTION ( 'NONE',  ( 0.000000000000000000, 0.000000000000000000, -1.000000000000000000 ) ) ;
#8 = STYLED_ITEM ( 'NONE', ( #58 ), #177 ) ;
#9 = DIRECTION ( 'NONE',  ( 0.000000000000000000, -1.000000000000000000, 0.000000000000000000 ) ) ;
#10 = CYLINDRICAL_SURFACE ( 'NONE', #182, 17.25000000000000000 ) ;
#11 = DIRECTION ( 'NONE',  ( 0.000000000000000000, 0.000000000000000000, 1.000000000000000000 ) ) ;
#12 = VECTOR ( 'NONE', #26, 1000.000000000000000 ) ;
#13 = ADVANCED_FACE ( 'NONE', ( #265, #123 ), #243, .T. ) ;
#14 = CARTESIAN_POINT ( 'NONE',  ( 0.000000000000000000, 1.049209706024775831E-14, -16.50000000000000000 ) ) ;
#15 = ADVANCED_FACE ( 'NONE', ( #167 ), #164, .T. ) ;
#16 = DIRECTION ( 'NONE',  ( 0.000000000000000000, 0.000000000000000000, 1.000000000000000000 ) ) ;
#17 = ORIENTED_EDGE ( 'NONE', *, *, #170, .T. ) ;
#18 = DIRECTION ( 'NONE',  ( 1.000000000000000000, -1.615544574432584956E-15, 0.000000000000000000 ) ) ;
#19 = UNCERTAINTY_MEASURE_WITH_UNIT (LENGTH_MEASURE( 1.000000000000000082E-05 ), #197, 'distance_accuracy_value', 'NONE');
#20 = AXIS2_PLACEMENT_3D ( 'NONE', #161, #7, #222 ) ;
#21 = CARTESIAN_POINT ( 'NONE',  ( -17.25000000000000000, 5.573961905996789660E-14, 5.500000000000000000 ) ) ;
#22 = DIRECTION ( 'NONE',  ( 0.000000000000000000, 0.000000000000000000, -1.000000000000000000 ) ) ;
#23 = EDGE_CURVE ( 'NONE', #97, #65, #264, .T. ) ;
#24 = DIRECTION ( 'NONE',  ( 1.000000000000000000, -1.615544574432585350E-15, 0.000000000000000000 ) ) ;
#25 = ORIENTED_EDGE ( 'NONE', *, *, #224, .T. ) ;
#26 = DIRECTION ( 'NONE',  ( 0.000000000000000000, 1.049665405100150028E-15, -1.000000000000000000 ) ) ;
#27 = AXIS2_PLACEMENT_3D ( 'NONE', #75, #136, #203 ) ;
#28 = LINE ( 'NONE', #201, #116 ) ;
#29 = EDGE_CURVE ( 'NONE', #260, #179, #125, .T. ) ;
#30 = CARTESIAN_POINT ( 'NONE',  ( 0.000000000000000000, 1.412043660038215831E-14, -11.00000000000000000 ) ) ;
#31 = CYLINDRICAL_SURFACE ( 'NONE', #237, 17.25000000000000000 ) ;
#32 = ORIENTED_EDGE ( 'NONE', *, *, #84, .F. ) ;
#33 = CIRCLE ( 'NONE', #149, 17.25000000000000000 ) ;
#34 = DIRECTION ( 'NONE',  ( 0.000000000000000000, 0.000000000000000000, -1.000000000000000000 ) ) ;
#35 = VERTEX_POINT ( 'NONE', #73 ) ;
#36 = AXIS2_PLACEMENT_3D ( 'NONE', #52, #261, #163 ) ;
#37 = CARTESIAN_POINT ( 'NONE',  ( 0.000000000000000000, 2.787147515100574709E-14, 5.500000000000000000 ) ) ;
#38 =( NAMED_UNIT ( * ) SI_UNIT ( $, .STERADIAN. ) SOLID_ANGLE_UNIT ( ) );
#39 = EDGE_CURVE ( 'NONE', #153, #35, #28, .T. ) ;
#40 = CIRCLE ( 'NONE', #27, 17.25000000000000000 ) ;
#41 = DIRECTION ( 'NONE',  ( 0.000000000000000000, 0.000000000000000000, 1.000000000000000000 ) ) ;
#42 = FACE_OUTER_BOUND ( 'NONE', #113, .T. ) ;
#43 = VERTEX_POINT ( 'NONE', #165 ) ;
#44 = ORIENTED_EDGE ( 'NONE', *, *, #124, .T. ) ;
#45 = CIRCLE ( 'NONE', #252, 6.500000000000000000 ) ;
#46 = LINE ( 'NONE', #218, #146 ) ;
#47 = ADVANCED_FACE ( 'NONE', ( #205 ), #204, .T. ) ;
#48 = FACE_OUTER_BOUND ( 'NONE', #173, .T. ) ;
#49 = EDGE_LOOP ( 'NONE', ( #226, #122 ) ) ;
#50 =( NAMED_UNIT ( * ) PLANE_ANGLE_UNIT ( ) SI_UNIT ( $, .RADIAN. ) );
#51 = CIRCLE ( 'NONE', #162, 17.25000000000000000 ) ;
#52 = CARTESIAN_POINT ( 'NONE',  ( 0.000000000000000000, 1.412043660038215831E-14, 0.000000000000000000 ) ) ;
#53 = DIRECTION ( 'NONE',  ( 0.000000000000000000, 0.000000000000000000, 1.000000000000000000 ) ) ;
#54 = DIRECTION ( 'NONE',  ( 1.000000000000000000, -1.615544574432585547E-15, 0.000000000000000000 ) ) ;
#55 = VERTEX_POINT ( 'NONE', #246 ) ;
#56 = VECTOR ( 'NONE', #169, 1000.000000000000000 ) ;
#57 = DIRECTION ( 'NONE',  ( 1.000000000000000000, -1.615544574432585350E-15, 0.000000000000000000 ) ) ;
#58 = PRESENTATION_STYLE_ASSIGNMENT (( #152 ) ) ;
#59 = EDGE_CURVE ( 'NONE', #55, #179, #103, .T. ) ;
#60 = DIRECTION ( 'NONE',  ( 0.000000000000000000, 0.000000000000000000, 1.000000000000000000 ) ) ;
#61 = ADVANCED_FACE ( 'NONE', ( #118 ), #10, .T. ) ;
#62 = AXIS2_PLACEMENT_3D ( 'NONE', #279, #258, #4 ) ;
#63 = AXIS2_PLACEMENT_3D ( 'NONE', #102, #34, #57 ) ;
#64 = LINE ( 'NONE', #91, #56 ) ;
#65 = VERTEX_POINT ( 'NONE', #225 ) ;
#66 = SURFACE_SIDE_STYLE ('',( #233 ) ) ;
#67 = ORIENTED_EDGE ( 'NONE', *, *, #59, .T. ) ;
#68 = ORIENTED_EDGE ( 'NONE', *, *, #79, .T. ) ;
#69 = EDGE_LOOP ( 'NONE', ( #223, #151 ) ) ;
#70 = FACE_OUTER_BOUND ( 'NONE', #202, .T. ) ;
#71 = EDGE_CURVE ( 'NONE', #35, #239, #193, .T. ) ;
#72 = ORIENTED_EDGE ( 'NONE', *, *, #207, .F. ) ;
#73 = CARTESIAN_POINT ( 'NONE',  ( -17.25000000000000000, 4.807908019005429754E-14, 0.000000000000000000 ) ) ;
#74 = AXIS2_PLACEMENT_3D ( 'NONE', #30, #245, #54 ) ;
#75 = CARTESIAN_POINT ( 'NONE',  ( 0.000000000000000000, 2.787147515100574709E-14, 0.000000000000000000 ) ) ;
#76 = CARTESIAN_POINT ( 'NONE',  ( -6.500000000000000000, 1.810655693003419976E-14, 0.000000000000000000 ) ) ;
#77 = VERTEX_POINT ( 'NONE', #143 ) ;
#78 = PRODUCT_DEFINITION_SHAPE ( 'NONE', 'NONE',  #5 ) ;
#79 = EDGE_CURVE ( 'NONE', #153, #132, #51, .T. ) ;
#80 = VERTEX_POINT ( 'NONE', #144 ) ;
#81 = CIRCLE ( 'NONE', #128, 8.750000000000000000 ) ;
#82 = ORIENTED_EDGE ( 'NONE', *, *, #39, .F. ) ;
#83 = AXIS2_PLACEMENT_3D ( 'NONE', #3, #98, #9 ) ;
#84 = EDGE_CURVE ( 'NONE', #97, #77, #229, .T. ) ;
#85 =( LENGTH_UNIT ( ) NAMED_UNIT ( * ) SI_UNIT ( .MILLI., .METRE. ) );
#86 = APPLICATION_CONTEXT ( 'automotive_design' ) ;
#87 = FACE_BOUND ( 'NONE', #141, .T. ) ;
#88 = PRODUCT_RELATED_PRODUCT_CATEGORY ( 'part', '', ( #184 ) ) ;
#89 = FACE_OUTER_BOUND ( 'NONE', #238, .T. ) ;
#90 = EDGE_LOOP ( 'NONE', ( #72, #221, #266, #82 ) ) ;
#91 = CARTESIAN_POINT ( 'NONE',  ( -8.750000000000000000, 2.437067104047924904E-14, 0.000000000000000000 ) ) ;
#92 = DIRECTION ( 'NONE',  ( 0.000000000000000000, 0.000000000000000000, 1.000000000000000000 ) ) ;
#93 = PRODUCT_CONTEXT ( 'NONE', #255, 'mechanical' ) ;
#94 = CIRCLE ( 'NONE', #228, 6.500000000000000000 ) ;
#95 = UNCERTAINTY_MEASURE_WITH_UNIT (LENGTH_MEASURE( 1.000000000000000082E-05 ), #85, 'distance_accuracy_value', 'NONE');
#96 = DIRECTION ( 'NONE',  ( 0.000000000000000000, 0.000000000000000000, -1.000000000000000000 ) ) ;
#97 = VERTEX_POINT ( 'NONE', #192 ) ;
#98 = DIRECTION ( 'NONE',  ( 0.000000000000000000, 0.000000000000000000, -1.000000000000000000 ) ) ;
#99 = ORIENTED_EDGE ( 'NONE', *, *, #168, .T. ) ;
#100 = ORIENTED_EDGE ( 'NONE', *, *, #267, .F. ) ;
#101 = ADVANCED_FACE ( 'NONE', ( #87, #42 ), #211, .T. ) ;
#102 = CARTESIAN_POINT ( 'NONE',  ( 0.000000000000000000, 2.787147515100574709E-14, 0.000000000000000000 ) ) ;
#103 = LINE ( 'NONE', #137, #187 ) ;
#104 = CIRCLE ( 'NONE', #231, 6.500000000000000000 ) ;
#105 = DIRECTION ( 'NONE',  ( 0.000000000000000000, 0.000000000000000000, -1.000000000000000000 ) ) ;
#106 = DIRECTION ( 'NONE',  ( 1.000000000000000000, -1.615544574432584956E-15, 0.000000000000000000 ) ) ;
#107 = DIRECTION ( 'NONE',  ( 0.000000000000000000, -0.000000000000000000, 1.000000000000000000 ) ) ;
#108 = ADVANCED_FACE ( 'NONE', ( #89 ), #208, .F. ) ;
#109 = ORIENTED_EDGE ( 'NONE', *, *, #207, .T. ) ;
#110 = AXIS2_PLACEMENT_3D ( 'NONE', #274, #107, #191 ) ;
#111 = CARTESIAN_POINT ( 'NONE',  ( 0.000000000000000000, 1.412043660038215831E-14, -11.00000000000000000 ) ) ;
#112 = CARTESIAN_POINT ( 'NONE',  ( 17.25000000000000000, 3.331242043622885192E-18, 0.000000000000000000 ) ) ;
#113 = EDGE_LOOP ( 'NONE', ( #68, #109 ) ) ;
#114 = ORIENTED_EDGE ( 'NONE', *, *, #29, .F. ) ;
#115 = AXIS2_PLACEMENT_3D ( 'NONE', #131, #16, #106 ) ;
#116 = VECTOR ( 'NONE', #121, 1000.000000000000000 ) ;
#117 = ORIENTED_EDGE ( 'NONE', *, *, #23, .T. ) ;
#118 = FACE_OUTER_BOUND ( 'NONE', #90, .T. ) ;
#119 = CYLINDRICAL_SURFACE ( 'NONE', #20, 6.500000000000000000 ) ;
#120 = EDGE_CURVE ( 'NONE', #55, #80, #81, .T. ) ;
#121 = DIRECTION ( 'NONE',  ( 0.000000000000000000, 0.000000000000000000, -1.000000000000000000 ) ) ;
#122 = ORIENTED_EDGE ( 'NONE', *, *, #29, .T. ) ;
#123 = FACE_OUTER_BOUND ( 'NONE', #69, .T. ) ;
#124 = EDGE_CURVE ( 'NONE', #65, #43, #94, .T. ) ;
#125 = CIRCLE ( 'NONE', #36, 8.750000000000000000 ) ;
#126 =( GEOMETRIC_REPRESENTATION_CONTEXT ( 3 ) GLOBAL_UNCERTAINTY_ASSIGNED_CONTEXT ( ( #95 ) ) GLOBAL_UNIT_ASSIGNED_CONTEXT ( ( #85, #235, #38 ) ) REPRESENTATION_CONTEXT ( 'NONE', 'WORKASPACE' ) );
#127 = DIRECTION ( 'NONE',  ( 1.000000000000000000, -1.615544574432585350E-15, 0.000000000000000000 ) ) ;
#128 = AXIS2_PLACEMENT_3D ( 'NONE', #111, #105, #189 ) ;
#129 = DIRECTION ( 'NONE',  ( 1.000000000000000000, -1.615544574432585547E-15, 0.000000000000000000 ) ) ;
#130 = EDGE_CURVE ( 'NONE', #43, #65, #104, .T. ) ;
#131 = CARTESIAN_POINT ( 'NONE',  ( 0.000000000000000000, 1.049209706024775831E-14, -11.00000000000000000 ) ) ;
#132 = VERTEX_POINT ( 'NONE', #148 ) ;
#133 = CARTESIAN_POINT ( 'NONE',  ( 0.000000000000000000, 1.049209706024775831E-14, 5.500000000000000000 ) ) ;
#134 = CARTESIAN_POINT ( 'NONE',  ( 0.000000000000000000, 2.787147515100574709E-14, 0.000000000000000000 ) ) ;
#135 = ORIENTED_EDGE ( 'NONE', *, *, #224, .F. ) ;
#136 = DIRECTION ( 'NONE',  ( 0.000000000000000000, 0.000000000000000000, -1.000000000000000000 ) ) ;
#137 = CARTESIAN_POINT ( 'NONE',  ( 8.750000000000000000, -5.655963853104350012E-14, -11.00000000000000000 ) ) ;
#138 = CIRCLE ( 'NONE', #263, 8.750000000000000000 ) ;
#139 = CARTESIAN_POINT ( 'NONE',  ( 0.000000000000000000, 2.787147515100574709E-14, 0.000000000000000000 ) ) ;
#140 = FACE_BOUND ( 'NONE', #49, .T. ) ;
#141 = EDGE_LOOP ( 'NONE', ( #185, #44 ) ) ;
#142 = DIRECTION ( 'NONE',  ( 1.000000000000000000, -1.615544574432585350E-15, 0.000000000000000000 ) ) ;
#143 = CARTESIAN_POINT ( 'NONE',  ( 6.500000000000000000, -4.201310160881129151E-14, -11.00000000000000000 ) ) ;
#144 = CARTESIAN_POINT ( 'NONE',  ( -8.750000000000000000, 2.437067104047924904E-14, -11.00000000000000000 ) ) ;
#145 = CLOSED_SHELL ( 'NONE', ( #101, #217, #254, #61, #108, #275, #13, #47, #15 ) ) ;
#146 = VECTOR ( 'NONE', #53, 1000.000000000000000 ) ;
#147 = DIRECTION ( 'NONE',  ( 1.000000000000000000, -1.615544574432584956E-15, 0.000000000000000000 ) ) ;
#148 = CARTESIAN_POINT ( 'NONE',  ( 17.25000000000000000, -9.614816665397768239E-14, 5.500000000000000000 ) ) ;
#149 = AXIS2_PLACEMENT_3D ( 'NONE', #175, #272, #251 ) ;
#150 = FILL_AREA_STYLE_COLOUR ( '', #248 ) ;
#151 = ORIENTED_EDGE ( 'NONE', *, *, #120, .T. ) ;
#152 = SURFACE_STYLE_USAGE ( .BOTH. , #66 ) ;
#153 = VERTEX_POINT ( 'NONE', #21 ) ;
#154 =( NAMED_UNIT ( * ) SI_UNIT ( $, .STERADIAN. ) SOLID_ANGLE_UNIT ( ) );
#155 = ORIENTED_EDGE ( 'NONE', *, *, #170, .F. ) ;
#156 = ORIENTED_EDGE ( 'NONE', *, *, #168, .F. ) ;
#157 = CARTESIAN_POINT ( 'NONE',  ( 17.25000000000000000, 3.331242043622885192E-18, 0.000000000000000000 ) ) ;
#158 = EDGE_LOOP ( 'NONE', ( #183, #156, #219, #176 ) ) ;
#159 = DIRECTION ( 'NONE',  ( 0.000000000000000000, 0.000000000000000000, 1.000000000000000000 ) ) ;
#160 = EDGE_CURVE ( 'NONE', #80, #55, #269, .T. ) ;
#161 = CARTESIAN_POINT ( 'NONE',  ( 0.000000000000000000, 1.049209706024775831E-14, -16.50000000000000000 ) ) ;
#162 = AXIS2_PLACEMENT_3D ( 'NONE', #37, #60, #127 ) ;
#163 = DIRECTION ( 'NONE',  ( 1.000000000000000000, -1.615544574432585547E-15, 0.000000000000000000 ) ) ;
#164 = CYLINDRICAL_SURFACE ( 'NONE', #270, 8.750000000000000000 ) ;
#165 = CARTESIAN_POINT ( 'NONE',  ( 6.500000000000000000, -4.201310160881129151E-14, 5.500000000000000000 ) ) ;
#166 = AXIS2_PLACEMENT_3D ( 'NONE', #157, #96, #180 ) ;
#167 = FACE_OUTER_BOUND ( 'NONE', #158, .T. ) ;
#168 = EDGE_CURVE ( 'NONE', #260, #80, #64, .T. ) ;
#169 = DIRECTION ( 'NONE',  ( 0.000000000000000000, 0.000000000000000000, -1.000000000000000000 ) ) ;
#170 = EDGE_CURVE ( 'NONE', #77, #97, #45, .T. ) ;
#171 = DIRECTION ( 'NONE',  ( 0.000000000000000000, 0.000000000000000000, -1.000000000000000000 ) ) ;
#172 = PRODUCT_DEFINITION_FORMATION_WITH_SPECIFIED_SOURCE ( 'ANY', '', #184, .NOT_KNOWN. ) ;
#173 = EDGE_LOOP ( 'NONE', ( #268, #155, #135, #1 ) ) ;
#174 = FILL_AREA_STYLE ('',( #150 ) ) ;
#175 = CARTESIAN_POINT ( 'NONE',  ( 0.000000000000000000, 2.787147515100574709E-14, 5.500000000000000000 ) ) ;
#176 = ORIENTED_EDGE ( 'NONE', *, *, #59, .F. ) ;
#177 = MANIFOLD_SOLID_BREP ( 'Combine1', #145 ) ;
#178 = ORIENTED_EDGE ( 'NONE', *, *, #79, .F. ) ;
#179 = VERTEX_POINT ( 'NONE', #190 ) ;
#180 = DIRECTION ( 'NONE',  ( 0.000000000000000000, -1.000000000000000000, 0.000000000000000000 ) ) ;
#181 = DIRECTION ( 'NONE',  ( 1.000000000000000000, -1.615544574432585547E-15, 0.000000000000000000 ) ) ;
#182 = AXIS2_PLACEMENT_3D ( 'NONE', #139, #247, #142 ) ;
#183 = ORIENTED_EDGE ( 'NONE', *, *, #160, .F. ) ;
#184 = PRODUCT ( 'R954-155', 'R954-155', '', ( #93 ) ) ;
#185 = ORIENTED_EDGE ( 'NONE', *, *, #130, .T. ) ;
#186 = ORIENTED_EDGE ( 'NONE', *, *, #267, .T. ) ;
#187 = VECTOR ( 'NONE', #159, 1000.000000000000000 ) ;
#188 =( GEOMETRIC_REPRESENTATION_CONTEXT ( 3 ) GLOBAL_UNCERTAINTY_ASSIGNED_CONTEXT ( ( #19 ) ) GLOBAL_UNIT_ASSIGNED_CONTEXT ( ( #197, #50, #154 ) ) REPRESENTATION_CONTEXT ( 'NONE', 'WORKASPACE' ) );
#189 = DIRECTION ( 'NONE',  ( 1.000000000000000000, -1.615544574432585547E-15, 0.000000000000000000 ) ) ;
#190 = CARTESIAN_POINT ( 'NONE',  ( 8.750000000000000000, -4.878807735866739802E-14, 0.000000000000000000 ) ) ;
#191 = DIRECTION ( 'NONE',  ( 0.000000000000000000, 1.000000000000000000, 0.000000000000000000 ) ) ;
#192 = CARTESIAN_POINT ( 'NONE',  ( -6.500000000000000000, 1.810655693003419976E-14, -11.00000000000000000 ) ) ;
#193 = CIRCLE ( 'NONE', #63, 17.25000000000000000 ) ;
#194 = ORIENTED_EDGE ( 'NONE', *, *, #84, .T. ) ;
#195 = PRODUCT_DEFINITION_CONTEXT ( 'detailed design', #86, 'design' ) ;
#196 = DIRECTION ( 'NONE',  ( 0.000000000000000000, 0.000000000000000000, -1.000000000000000000 ) ) ;
#197 =( LENGTH_UNIT ( ) NAMED_UNIT ( * ) SI_UNIT ( .MILLI., .METRE. ) );
#198 = SHAPE_DEFINITION_REPRESENTATION ( #78, #273 ) ;
#199 = AXIS2_PLACEMENT_3D ( 'NONE', #253, #196, #256 ) ;
#200 = LINE ( 'NONE', #241, #12 ) ;
#201 = CARTESIAN_POINT ( 'NONE',  ( -17.25000000000000000, 4.807908019005429754E-14, 5.500000000000000000 ) ) ;
#202 = EDGE_LOOP ( 'NONE', ( #212, #186 ) ) ;
#203 = DIRECTION ( 'NONE',  ( 1.000000000000000000, -1.615544574432585350E-15, 0.000000000000000000 ) ) ;
#204 = CYLINDRICAL_SURFACE ( 'NONE', #74, 8.750000000000000000 ) ;
#205 = FACE_OUTER_BOUND ( 'NONE', #234, .T. ) ;
#206 = DIRECTION ( 'NONE',  ( 0.000000000000000000, 0.000000000000000000, -1.000000000000000000 ) ) ;
#207 = EDGE_CURVE ( 'NONE', #132, #153, #33, .T. ) ;
#208 = CYLINDRICAL_SURFACE ( 'NONE', #242, 6.500000000000000000 ) ;
#209 = EDGE_CURVE ( 'NONE', #179, #260, #138, .T. ) ;
#210 = DIRECTION ( 'NONE',  ( 0.000000000000000000, 0.000000000000000000, -1.000000000000000000 ) ) ;
#211 = PLANE ( 'NONE',  #110 ) ;
#212 = ORIENTED_EDGE ( 'NONE', *, *, #71, .T. ) ;
#213 = DIRECTION ( 'NONE',  ( 1.000000000000000000, -1.615544574432584956E-15, 0.000000000000000000 ) ) ;
#214 = EDGE_CURVE ( 'NONE', #239, #132, #46, .T. ) ;
#215 = APPLICATION_PROTOCOL_DEFINITION ( 'draft international standard', 'automotive_design', 1998, #255 ) ;
#216 = ORIENTED_EDGE ( 'NONE', *, *, #214, .T. ) ;
#217 = ADVANCED_FACE ( 'NONE', ( #140, #70 ), #262, .T. ) ;
#218 = CARTESIAN_POINT ( 'NONE',  ( 17.25000000000000000, -1.114692443938049941E-13, 0.000000000000000000 ) ) ;
#219 = ORIENTED_EDGE ( 'NONE', *, *, #209, .F. ) ;
#220 = VECTOR ( 'NONE', #11, 1000.000000000000000 ) ;
#221 = ORIENTED_EDGE ( 'NONE', *, *, #214, .F. ) ;
#222 = DIRECTION ( 'NONE',  ( 1.000000000000000000, -1.615544574432584956E-15, 0.000000000000000000 ) ) ;
#223 = ORIENTED_EDGE ( 'NONE', *, *, #160, .T. ) ;
#224 = EDGE_CURVE ( 'NONE', #43, #77, #200, .T. ) ;
#225 = CARTESIAN_POINT ( 'NONE',  ( -6.500000000000000000, 1.810655693003419976E-14, 5.500000000000000000 ) ) ;
#226 = ORIENTED_EDGE ( 'NONE', *, *, #209, .T. ) ;
#227 = DIRECTION ( 'NONE',  ( 0.000000000000000000, 0.000000000000000000, -1.000000000000000000 ) ) ;
#228 = AXIS2_PLACEMENT_3D ( 'NONE', #277, #227, #18 ) ;
#229 = CIRCLE ( 'NONE', #115, 6.500000000000000000 ) ;
#230 = DIRECTION ( 'NONE',  ( 1.000000000000000000, -1.615544574432584956E-15, 0.000000000000000000 ) ) ;
#231 = AXIS2_PLACEMENT_3D ( 'NONE', #133, #171, #230 ) ;
#232 = CARTESIAN_POINT ( 'NONE',  ( 0.000000000000000000, 1.412043660038215831E-14, 0.000000000000000000 ) ) ;
#233 = SURFACE_STYLE_FILL_AREA ( #174 ) ;
#234 = EDGE_LOOP ( 'NONE', ( #6, #67, #114, #99 ) ) ;
#235 =( NAMED_UNIT ( * ) PLANE_ANGLE_UNIT ( ) SI_UNIT ( $, .RADIAN. ) );
#236 = EDGE_LOOP ( 'NONE', ( #178, #276, #100, #216 ) ) ;
#237 = AXIS2_PLACEMENT_3D ( 'NONE', #134, #22, #24 ) ;
#238 = EDGE_LOOP ( 'NONE', ( #117, #259, #25, #32 ) ) ;
#239 = VERTEX_POINT ( 'NONE', #112 ) ;
#240 = EDGE_LOOP ( 'NONE', ( #194, #17 ) ) ;
#241 = CARTESIAN_POINT ( 'NONE',  ( 6.500000000000000000, -4.778626133686209921E-14, 5.500000000000000000 ) ) ;
#242 = AXIS2_PLACEMENT_3D ( 'NONE', #14, #210, #213 ) ;
#243 = PLANE ( 'NONE',  #83 ) ;
#244 = CARTESIAN_POINT ( 'NONE',  ( -8.750000000000000000, 2.825645162666729693E-14, 0.000000000000000000 ) ) ;
#245 = DIRECTION ( 'NONE',  ( 0.000000000000000000, 0.000000000000000000, -1.000000000000000000 ) ) ;
#246 = CARTESIAN_POINT ( 'NONE',  ( 8.750000000000000000, -1.557842590297845321E-17, -11.00000000000000000 ) ) ;
#247 = DIRECTION ( 'NONE',  ( 0.000000000000000000, 0.000000000000000000, -1.000000000000000000 ) ) ;
#248 = COLOUR_RGB ( '',0.7921568627450980005, 0.8196078431372548767, 0.9333333333333333481 ) ;
#249 = CARTESIAN_POINT ( 'NONE',  ( 0.000000000000000000, 1.412043660038215831E-14, -11.00000000000000000 ) ) ;
#250 = MECHANICAL_DESIGN_GEOMETRIC_PRESENTATION_REPRESENTATION (  '', ( #8 ), #126 ) ;
#251 = DIRECTION ( 'NONE',  ( 1.000000000000000000, -1.615544574432585350E-15, 0.000000000000000000 ) ) ;
#252 = AXIS2_PLACEMENT_3D ( 'NONE', #278, #92, #147 ) ;
#253 = CARTESIAN_POINT ( 'NONE',  ( 0.000000000000000000, 1.412043660038215831E-14, -11.00000000000000000 ) ) ;
#254 = ADVANCED_FACE ( 'NONE', ( #257 ), #31, .T. ) ;
#255 = APPLICATION_CONTEXT ( 'automotive_design' ) ;
#256 = DIRECTION ( 'NONE',  ( 1.000000000000000000, -1.615544574432585547E-15, 0.000000000000000000 ) ) ;
#257 = FACE_OUTER_BOUND ( 'NONE', #236, .T. ) ;
#258 = DIRECTION ( 'NONE',  ( 0.000000000000000000, 0.000000000000000000, 1.000000000000000000 ) ) ;
#259 = ORIENTED_EDGE ( 'NONE', *, *, #130, .F. ) ;
#260 = VERTEX_POINT ( 'NONE', #244 ) ;
#261 = DIRECTION ( 'NONE',  ( 0.000000000000000000, 0.000000000000000000, 1.000000000000000000 ) ) ;
#262 = PLANE ( 'NONE',  #166 ) ;
#263 = AXIS2_PLACEMENT_3D ( 'NONE', #232, #41, #129 ) ;
#264 = LINE ( 'NONE', #76, #220 ) ;
#265 = FACE_BOUND ( 'NONE', #240, .T. ) ;
#266 = ORIENTED_EDGE ( 'NONE', *, *, #71, .F. ) ;
#267 = EDGE_CURVE ( 'NONE', #239, #35, #40, .T. ) ;
#268 = ORIENTED_EDGE ( 'NONE', *, *, #23, .F. ) ;
#269 = CIRCLE ( 'NONE', #199, 8.750000000000000000 ) ;
#270 = AXIS2_PLACEMENT_3D ( 'NONE', #249, #206, #181 ) ;
#271 = PRESENTATION_LAYER_ASSIGNMENT (  '', '', ( #8 ) ) ;
#272 = DIRECTION ( 'NONE',  ( 0.000000000000000000, 0.000000000000000000, 1.000000000000000000 ) ) ;
#273 = ADVANCED_BREP_SHAPE_REPRESENTATION ( 'R954-155', ( #177, #62 ), #188 ) ;
#274 = CARTESIAN_POINT ( 'NONE',  ( 17.25000000000000000, 3.331242043622885192E-18, 5.500000000000000000 ) ) ;
#275 = ADVANCED_FACE ( 'NONE', ( #48 ), #119, .F. ) ;
#276 = ORIENTED_EDGE ( 'NONE', *, *, #39, .T. ) ;
#277 = CARTESIAN_POINT ( 'NONE',  ( 0.000000000000000000, 1.049209706024775831E-14, 5.500000000000000000 ) ) ;
#278 = CARTESIAN_POINT ( 'NONE',  ( 0.000000000000000000, 1.049209706024775831E-14, -11.00000000000000000 ) ) ;
#279 = CARTESIAN_POINT ( 'NONE',  ( 0.000000000000000000, 0.000000000000000000, 0.000000000000000000 ) ) ;
ENDSEC;
END-ISO-10303-21;
